display | more...

Battle theme in Final Fantasy 4 played when fighting the Four Fiends of the Elements... you know, Rubicant, Valvalis, etc. Just as the rest of the songs in the FF series, this piece was composed by Nobuo Uematsu, but the lead parts were arranged into guitar tablature form by me. Please note: there are some rather crazy syncopations and rhythm changes in this song that the rather primitive tab notation is not well equipped to explain... also, most of the fast runs (marked with a *) are played twice as fast as they appear in writing. If you really want to impress your friends, listen to the song a few times and get it right.


Intro: does not loop!                             End Intro
|-------------------------------------------5-4-8-7--------|
|---------------------------------------6-5----------------|
|---------------------------------5------------------------|
|-----------------------------7-6---6-7--------------------|
|---------------5-7---6-8---7------------------------------|
|-4-5-7-8---7-8--------------------------------------------|

|-5---------------5-----------7---------------7---------------|
|-4---------------4-----------6---------------6---------------|
|-5-------2-------5---2-------7-------4-------7---4-----------|
|---------1-----------1---------------3-----------3-----------|
|---------3-----------3---------------5-----------5-----0235--|
|-------------------------------------------------------------|

|-------------------------------------------------------------|
|-------------------------------------------------------------|
|-----------------------*-----------------------------*-------|
|-5-4---4-3---3-2---1-2-32123---5-4---4-3---3-2---1-2-32123---|
|-------------------------------------------------------------|
|-------------------------------------------------------------|

|-----------------------------------------------------------------|
|-0-----1-3-----5-6-----5-3-----0-1-----3-5-----6-8-----6-5-----1-|
|-0-----2-4-----5-7-----5-4-----0-2-----4-5-----7-9-----7-5-----2-|
|-----------------------------------------------------------------|
|-----------------------------------------------------------------|
|-----------------------------------------------------------------|

|------------------------------------------------*----------------|
|-0-----1-3-----5-6-----5-3----0-1-----3-5-----6-81086-6----------|
|-0-----2-4-----5-7-----5-4----0-2-----4-5-----7------9-97575-----|
|------------------------------------------------------------97975|
|-----------------------------------------------------------------|
|-----------------------------------------------------------------|

|-------------------------------------------------------310-----|
|---8-8---6-6---5-5------*---------8-8---6-6---5-5------*--310--|
|---------------------------2---------------------------------21|
|-5-----3-----2----------235-5---5-----3-----2------------------|
|---------------------------------------------------------------|
|---------------------------------------------------------------|

|----------------------------------------------------------------|
|--------------------------------------------------------5-4-6-5-|
|-2------3-------2-------0--------2------3-------2---------------|
|----------------------------------------------------------------|
|----------------------------------------------------------------|
|----------------------------------------------------------------|

|-----------------------------------------------|
|-------------------------------5-4---------5-4-|
|.2-4-5---2-4-5---2-4-5-4-2-4-5-------2-4-5-----|
|.----------------------------------------------|
|-----------------------------------------------|
|-----------------------------------------------|

|-----------------------------------------------|
|-------------------------------8-7-7---------8-|
|-5-7-9---5-7-9---5-7-9-7-5-7-9---8-8---5-7-9---|
|-----------------------------------------------|
|-----------------------------------------------|
|-----------------------------------------------|

|-----------------------------------------------0---------------------------------|
|-7-----6-----5-----4-----3---2---1---0---1-------4---1---1-----------------------|
|-8-----7-----6-----5-----4---3---2---1-----2-----------2---2----(bass slide)----.|
|-----9-----8-----7-----6---5---4---3---2----------------------------------------.|
|---------------------------------------------------------------------------------|
|---------------------------------------------------------------------------------|

|-------------------------------|
|-6---5---4---5---6---8-6-5-----|
|.-----------------------------.|
|.-----------------------------.|
|-------------------------------|
|-------------------------------|
Loop back to beginning until monster is defeated

Log in or register to write something here or to contact authors.