display | more...
Everything Musical Tablature Database
Home :: D :: Deftones :: Engine No. 9 (Bass)

Normal tuning, played at a pretty fast speed. Use a heavy distortion pedal like a Metal Zone for the bass solo.

Intro 

E|----------------------14\2------|

Riff A:
G|--------------------------------|
D|--------------------------------|
A|-----------------------------0--|
E|-2-3-2-0-2-3-2-0-2-3-2-0-2-3----|

Riff B:
G|--------------------------------|--------------------------------|
D|--------------------------------|--------------------------------|
A|--------------------------------|--------------------------------|
E|-2-2-----2-2-----2-2-----2-2----|--6----6--6---5----5---3--5--3--|

Riff C:
G|--------------------------------|
D|--------------------------------|
A|--------------------------------|
E|-2--0--2--0--2---0--5h6--0------|

Riff D:
G|--------------------------------|
D|--------------------------------|
A|-----------------------0h1------|
E|-2h3-0-0-2--0-2--0-2h3-----0----|

Riff E:
   | 3 | | 3 | | 3 | | 3 |
G|-------------------------|
D|-------------------------|
A|-------------------------|
E|-1-1-1-1-1-1-1-1-1-1-1-1-|
Guitar Intro x 2 (2nd time play the intro slide)
Riff A x 4
Riff B x 2
Riff A x 12
Riff B x 2
Guitar Intro x 1 (Tacet)
Riff A x 8
Riff B x 3
Riff C x 8
Riff D x 8
Riff E x 1
Riff B x 4

Log in or register to write something here or to contact authors.