display | more...
Everything Musical Tablature Database
Home :: P :: Primus :: Jerry Was a Race Car Driver (Bass)

Artist: Primus
Album: Sailing the Seas of Cheese
Label: Caroline
Song: Jerry Was a Race Car Driver

Main Riff

    R  L  L   R   L  L  L   R  R  R   L  L  L
G|--23--------24------------23-23-23------------|
D|o-22--------23------------22-22-22-----------o|
A|o----11 10------12-11-10---------------------o|
E|------------------------------------10-11-12--|
Alternate Riff
    R  L  L   R   L  L  L   R  R  R   L  L  L
G|--24--------25------------24-24-24------------|
D|o-23--------24------------23-23-23-----------o|
A|o----12-11------13-12-11---------------------o|
E|------------------------------------11-12-13--|

R and L denote Right and Left hand tapping
Chorus
                
                             v  ^  v (flamenco strumming)
G|---------------------------17-18-20---|
D|o--------------------------17-18-20--o|x3
A|o------------------------------------o|
E|--3s-2p-0p-3s-2p-0p-0s-0s-------------|

G|-------------------------------------|
D|-------------------------------------|
A|--------------------------5s*-6s*----| 
E|-3s-2p-0p-3s-2p-0p-0s-0s-------------|
* = played down an octave on a 5 string

                             v  ^  v  ^  v
G|---------------------------20-20-20-20-20-|
D|---------------------------20-20-20-20-20-|
A|------------------------------------------|
E|-3s-2p-0p-3s-2p-0p-0s-0s------------------|

                              v  ^  v  ^  V  ^ 
G|----------------------------20       \     0--|
D|----------------------------20       \     0--|
A|----------------------------------------------|
E|-3s-2p-0p-3s-2p-0p-0s-0s----------------------|



Log in or register to write something here or to contact authors.